14

Text Box: Kaj so »tabsi«

Tabsi ali tabulatorji so zapis neke melodije, podobno kot note, le da so prilagojeni kitari. Imajo 6 črt, vsaka črta pomeni eno struno na kitari: Zgornja pomeni najtanjša, spodnja pa najdebelejša struna. Primer praznega tabsa:

E----------------------------------------------------------------

B----------------------------------------------------------------

G----------------------------------------------------------------

D----------------------------------------------------------------

A----------------------------------------------------------------

E----------------------------------------------------------------

Namesto not uporabljamo številke. Te nam povedo, katero polje primemo (zaigramo).  Če je številka 0, pomeni, da igraš na prazno struno. Beremo iz leve proti desni. Primer na spodnji sliki prikazuje igranje not zaporedno:

E---------------------------------------------------------------|-

B---------------------------------------------------------------|-

G---------------------------------------------------------------|-

D---------------------------------------------------------------|-

A---------------------------------------------------------------|-

E---0--1--2--3--4--5--------------------------------------------|-

So tudi note, ko igramo vse naenkrat, to je takrat, ko so dve ali več številk napisane ene nad drugo; tukaj imamo primer G akorda v baréju:

E----3-----------------------------------------------------------|-

B----3-----------------------------------------------------------|-

G----4-----------------------------------------------------------|-

D----5-----------------------------------------------------------|-

A----5-----------------------------------------------------------|-

E----3-----------------------------------------------------------|-

Tabsi imajo le to slabost, da ne vemo koliko trajajo določene note. Zato je treba že v naprej malo poznati pesem oz. melodijo, ki se jo želimo naučiti. Še en primer...

E------------------3-----------------0-----------------0-----2----|-

B---------------3-----3-----------------2-----------------2--3----|-

G------------4-----------4-----------------2---------3-------2----|-

D---------5-----------------5-----------------2------2-------0----|-

A------5-----------------------5-----------------0---0------------|-

E---3-----------------------------3-------------------------------|-

Nasvet: poskušaj najti vedno akord znotraj tabsa in ga pobarvaj.